man, actor, athlete, Actor, Arnold Schwarzenegger, Producer, Director, Arnold Schwarzenegger wallpaper (photos, pictures)

Every day new pictures, screensavers, and only beautiful wallpapers for free.
Hi-Tech Abstraction Aviation Anime City Girls Food Painting Animals Games Interior Space Cats Macro Cars Minimalism Men Music Mood New Year / Christmas Weapon Landscapes Holidays Nature Miscellanea Rendering Situations Dog Sports Style Textures Fantasy Films Flowers

Section Sports

2394x1507
+432
Colors

Similar wallpapers


Comments • 34
Шикарная фотка! Легенда
Reply
Легендарный химик Арнольд Менделеев.
Reply
Химик-ядерщик!
Reply
Мне кажется или это вовсе не Арни о_0
Reply
это Бутлеров изобрел вещество, которое перемещает в будущее (и заодно увеличивает бицуху)
Reply
Басовая табулатура
Reply
E E S S E E E E Q E E E E E E E E E E Q E E E E E E
|-0-----21----21----21----19\----------|-0----21----21----21\---15\-0-----0-0-|
|-0--------------------20-19\--0-5-0-3-|-0----------------------15\-0-0-5-0-0-|
|-0--------21----21------------0-5-0-3-|-0-21----21----21-21\---------0-5-----|
|-0-/17--------------------------------|--------------------------------------|
|---/17--------------------------------|--------------------------------------|
|--------------------------------------|--------------------------------------|
Reply
E Q Q. Q E E E E E E E E E E Q. E E E
|----------------------||--------------------------||
|-0-2s=3---------------||o-------------0----------o||
|-0-2s=3----0--0-5-0-3-||--0-----3-0-3-0----5-0-3--||
|-0-2s=3----0--0-5-0-3-||--0-3-0-3-0-3-0----5-0-3--||
|----------------------||o---3-0------------------o||
|----------------------||--------------------------||
Reply
E a E E E E E E E E E E E E E a S S S S +Q +Q E E E E
|-0-----3---3-3-3-5-5-------|-0-15s13s15-------------------5--------|
|-0-1s3---3-3-3-3-3-3-5-0-3-|-0-15s13s15s13-11---------------5-0-/3-|
|-0-------3-----------5-0-3-|-0----------------0-(0)--(0)----5-0-/3-|
|-0-------------------5-0-3-|------------------0-(0)--(0)----5-0-/3-|
|---------------------------|---------------------------------------|
|---------------------------|---------------------------------------|
Reply
E E E E E E E E E E E E
|--------------------------------------------0-|
|--------------------------------------------0-|
|-12-12-11b11.5-11b11.5-12-12-12-12-12-12\-0-0-|
|-12-12-11b11.5-11b11.5-12-12-12-12-12-12\-0-0-|
|----------------------------------------------|
|----------------------------------------------|


Q. +E E E Q. E E E H. +Q E E E E
|-0----(0)-----0-0--------/12-|-0-------(0)-----------||
|-0----(0)-----0-0----0---/12-|-0-------(0)--0-5-0-3--||
|-0----(0)--4--0-0----0-0-/12-|-0-------(0)--0-5-0-3--||
|-0----(0)-(4)-0-0----0-0-----|-0-------(0)--0-5-0-3--||
|-----------------------------|-----------------------||
|-----------------------------|-----------------------||


Verse 3:

q E Q. H. Wx5
|-0-----------------|--------|
|-0-----------------|--------|
|-0-----------------|--------|
|-0-----------------|--------|
|-------------------|--------|
|-------------------|--------|

Riff 1
Riff 2 x3
Riff 3

Sax Solo:

||--0-------(0)-----------||
||o-0-------(0)----5-0-3-o||
||--0-------(0)--0-5-0-3--||
||--0-------(0)--0-5-0-3--||
||o----------------------o||
||------------------------||
Reply
This world's a f*cking nightmare
It brings us nothing but pain
Chasing dreams that don't exist
And everything's not what it seems
Try and draw me off my path
Look what's become of me
Can't deny the damage I've caused
Gotta balance my reality

Destroy your f*cking world
It brings us nothing but pain
Hardened wills, force fed lies
Resistance, return to strength
Return to strength

Ill tempers fill my mind
I've grown through this pain
Hard pressed to desperation
Too late for apologies

Destroy your f*cking world
It brings us nothing but pain
Hardened wills, force fed lies
Resistance, return to strength

Destroy your f*cking world
I've grown through this pain
Hardened wills, force fed lies
Resistance, return to strength

I put the worst behind me
Crossed out what I no longer need
Life isn't always fair
Back to the essence as I prepare to

Destroy your f*cking world
It brings us nothing but pain
Hardened wills, force fed lies
Resistance, return to strength

I've grown through this pain
I've grown through this pain
Too late for apologies
Resistance, return to strength
Return to strength
Reply
О боже лучше бы я не читал...
Reply
кто минусует тот просто дохлый дрыщ неудачник
Reply
или натурал
Reply
или гуманитарий, не любящий химиков
Reply
ябдала
Reply
Ребят, почему у меня из отстойника не скачивает с разрешением 1980х1020? При нажатии на картинку только 1680 максималку выдает?
Reply
реакция электроники на химию
Reply
Тех работы
Reply
Слабак ... !
Reply
Видимо, вы проверяли это на деле или же имеете более сильное тело, раз так утверждаете.
Reply
в те годы когда Арни был молод,химия не такая была эффективная как сейчас,думаю во многом его тело,это дело рук его творений,а не химии
Reply
Химия не была такая эффективная? Тебе самому не смешно?
Reply
Под картинками с Арни надо сразу возможность комментариев отключать.
Reply
Не нужно воспринимать все близко к сердцу. Все равно этот трёп ничего не меняет, Арни крутой чувак кто бы чтобы про него не говорил.
Reply
он достоин восхищения
Reply
неандртальцы тоже были сильне сапенсов и где они теперь
Reply
те кто все ссылаются на химию, это люди которые в бодибилдинге ничего не понимают и знают только одно слово "химия" которое услышали от такого же нуба. Да возьмите "химию" и попробуйте накачаться как он, а то у всех стереотипы о том что с химией мышцы растут сами)
Reply
сами не растут, но без химии ты такого не добьешься.
Reply
Великолепно! Вот на кого равняться нужно, вот где настоящая мотивация. А если вы такие вещества как протеин, казеин, аминокислоты и тому подобное считаете химией, то почитайте состав того, что вы каждый день едите и пьете...
Reply
update

Random wallpapers

We noticed that you're using an ad blocker

Please help us continue to delight you with great wallpapers. Please disable your ad blocker on GoodFon.